Tablatur Guitar Avenged Sevenfold - Critical Acclaim

Hallo pengunjung, artikel yang saya buat kali ini adalah Tablatur Guitar Avenged Sevenfold - Critical Acclaim yang telah kami persiapkan artikel ini dengan baik untuk anda baca dan ambil informasi didalamnya. mudah-mudahan isi postingan Artikel Tablatur guitar, yang kami tulis ini dapat anda pahami. baiklah, selamat membaca.


Baca juga


Tablatur Guitar Avenged Sevenfold - Critical Acclaim

All Music Recorded by: Avenged Sevenfold
Avenged Sevenfold Is: Matthew Sanders, Brian Haner Jr., Zachary Baker, James
Sullivan and Johnny Gera
Produced by Avenged Sevenfold & Warners Bros.

To See the tablature legend, See bottom of the tab.
Thank you to Rockford_rocks and adammn6661 for contributing.
If you have a problem with your tab being on here, comment or pm me and I'll
remove it asap.

UPDATES:
Added unbound solo.
Fixed some slides in Scream.
Almost Easy in Drop C#

To be Updated:
Critical Acclaim needs the whole framework redone.
Finish A Little Piece Of Heaven.

Anything else, Leave a comment.

---------------------------------------
Critical Acclaim
---------------------------------------

Transcribed by Seth Shadows {F.u.c.kallyourfalsebeauty@hotmail.com}

Gtr I (D A D G B E) - 'Rhythm Left'
Gtr II (D A D G B E) - 'Rhythm Right'
Gtr III (D A D G B E) - 'Lead Left'
Gtr IV (D A D G B E) - 'Lead Right'
Gtr V (D A D G B E) - 'Lead Neutral'
Gtr VI (D A D G B E) - 'Organ'
Gtr VII (D A D G B E) - 'Lead Neutral Two'

Intro
Q=92
4/4
Gtr VI
W Q. S S H H H W
|-----------|-------------------------|-------------|-------|
|-15--------|-------------------------|-------------|-15----|
|-14--------|-12----------------------|-10----12----|-12----|
|--0--------|-10-----10----8---10-----|--8----10----|--0----|
|--0--------|-10----(10)-(10)-(10)----|--8----10----|--0----|
|--0--------|-10----(10)-(10)-(10)----|--8----10----|--0----|
W W H H W


+W Q. S S H H H W
|-------------|-------------------------|-------------|-------||
|-(15)--------|-------------------------|-------------|-15----||
|-(12)--------|-12----------------------|-10----12----|-12----||
|--(0)--------|-10-----10----8---10-----|--8----10----|--0----||
|--(0)--------|-10----(10)-(10)-(10)----|--8----10----|--0----||
|--(0)--------|-10----(10)-(10)-(10)----|--8----10----|--0----||
+W W H H


Intro Harmony
Q=132
Gtr V
~~
Q. Q. Q +E Q. H
|-/13--------------|-------/13----12----|
|--------15--------|--------------------|
|--------------14--|-(14)\--------------|
|------------------|--------------------|
|------------------|--------------------|
|------------------|--------------------|
|
| Gtrs I, II
| W +H H
|------------------|--------------------|
|------------------|--------------------|
|------------------|---------------5----|
|---0--------------|--(0)----------5----|
|---0--------------|--(0)----------3----|
|---0--------------|--(0)---------------|
|
| Gtr VI
| +W +H H
|------------------|--------------------|
|-(15)-------------|-(15)---------------|
|-(12)-------------|-(12)---------12----|
|--(0)-------------|--(0)---------10----|
|--(0)-------------|--(0)---------10----|
|--(0)-------------|--(0)---------10----|
+W +H H


~~~~
|4:2| |--3--|
Q Q Q Q Q E. +S H +Q Q
|-/15--17p15------------------|-/13-----(13)\--/12--|
|------------18p17------------|---------------------|
|------------------17--(17)\--|---------------------|
|-----------------------------|---------------------|
|-----------------------------|---------------------|
|-----------------------------|---------------------|
|
| +W H. Q
|-----------------------------|---------------------|
|-----------------------------|---------------------|
|--(5)------------------------|---3--------------5--|
|--(5)------------------------|---3--------------5--|
|--(3)------------------------|---1--------------3--|
|-----------------------------|---------------------|
|
| >
| +W +W
|-----------------------------|---------------------|
|-----------------------------|---------------------|
|-(12)------------------------|-(12)----------------|
|-(10)------------------------|-(10)----------------|
|-(10)------------------------|-(10)----------------|
|-(10)------------------------|-(10)----------------|
+W +W


~~~~~~~~~~~~
+Q. E E Q. +W
|-(12)---10h12p10----:-(10)---------|
|--------------------:--------------|
|--------------------:--------------|
|--------------------:--------------|
|--------------------:--------------|
|--------------------:--------------|
|
| +H H +H +H
|--------------------:--------------|
|--------------------:--------------|
|--(5)-------7-------:--(7)--(7)----|
|--(5)-------7-------:--(7)--(7)----|
|--(3)-------5-------:--(5)--(5)----|
|------------0-------:--(0)--(0)----|


4/4
Gtr III
~~~
Q. Q. Q +E Q. H
|-/13--------------|-------/13----12----------|
|--------15--------|--------------------------|
|--------------14--|-(14)\--------------------|
|------------------|--------------------------|
|------------------|--------------------------|
|------------------|--------------------------|
|
| Gtr IV
| ~~~
| Q. Q. Q +E Q. Q. +E
|-/17--------------|-------/22----20----(20)\-|
|--------18--------|--------------------------|
|--------------19--|-(19)\--------------------|
|------------------|--------------------------|
|------------------|--------------------------|
|------------------|--------------------------|
|
| Gtrs I, II, VI
| W +H H
|------------------|--------------------------|
|------------------|--------------------------|
|------------------|---------------5----------|
|---0--------------|--(0)----------5----------|
|---0--------------|--(0)----------3----------|
|---0--------------|--(0)---------------------|


~~~~~~
|4:2| |--3--|
Q Q Q Q Q E. +S H +Q Q
|-/15--17p15------------------|-/13---------------(13)\--/12---|
|------------18p17------------|--------------------------------|
|------------------17--(17)\--|--------------------------------|
|-----------------------------|--------------------------------|
|-----------------------------|--------------------------------|
|-----------------------------|--------------------------------|
|
| ~~~~~~~~~~~~~~~
| |4:2| |--3--|
| Q Q Q Q Q E. +S Q +H.
|-----------------------------|-/15b17--(15)pb17---------------|
|-/17h=18-17p15---------------|--------------------------------|
|---------------17p14--(14)\--|--------------------------------|
|-----------------------------|--------------------------------|
|-----------------------------|--------------------------------|
|-----------------------------|--------------------------------|
|
| +W H. Q
|-----------------------------|--------------------------------|
|-----------------------------|--------------------------------|
|--(5)------------------------|---3------------------------5---|
|--(5)------------------------|---3------------------------5---|
|--(3)------------------------|---1------------------------3---|
|-----------------------------|--------------------------------|


~~~~~~~~ ~~~~~~~~~~~~~~~
+Q. E E Q. +W
|-(12)-------10h12p10-------:-(10)----||
|---------------------------:---------||
|---------------------------:---------||
|---------------------------:---------||
|---------------------------:---------||
|---------------------------:---------||
|
| ~~~~~~~~ ~~~~~~~~~~~~~~~
| +Q. E E Q. +W
|-(15)pb17---13h15p13-------:-(13)----||
|---------------------------:---------||
|---------------------------:---------||
|---------------------------:---------||
|---------------------------:---------||
|---------------------------:---------||
|
| +H Q +Q +W
|---------------------------:---------||
|---------------------------:---------||
|--(5)----------------------:---------||
|--(5)-----------0-----(0)--:--(0)----||
|--(3)-----------0-----(0)--:--(0)----||
|----------------0-----(0)--:--(0)----||


PreVerse
3/4
Gtr V
Q +Q +Q 6x
||-------------------------------------------||
||o-18----------(18)----------(18)----------o||
||--20b22r======(20)b22r======(20)b23r=======||
||-------------------------------------------||
||o-----------------------------------------o||
||-------------------------------------------||
| Gtr VII
| Q +Q +Q 6x
||--16----------(16)----------(16)-----------||
||o-19b21=======(21)==========(21)==========o||
||-------------------------------------------||
||-------------------------------------------||
||o-----------------------------------------o||
||-------------------------------------------||
| Gtrs I, II
| PM----------------------------------------
| S S S S S S S S S S S S 6x
||-------------------------------------------||
||o-----------------------------------------o||
||-------------------------------------------||
||-------------------------------------------||
||o-----------------------------------------o||
||---0----0-0-0---0-----0-0-0---0-----0-0-0--||


~~~~~
Q Q Q
|-------------16----------16----------|
|-18----------19b21-------19b21-------|
|-20b22-------------------------------|
|-------------------------------------|
|-------------------------------------|
|-------------------------------------|

|-16----------18---------(18)---------|
|-19b21-------22b25======(22)---------|
|-------------------------------------|
|-------------------------------------|
|-------------------------------------|
|-------------------------------------|
|
|-----------------------------------|
| S S S S S S S S S S S S
|-------------------------------------|
|-------------------------------------|
|-------------------------------------|
|-------------------------------------|
|-------------------------------------|
|--0----0-0-0--0----0-0-0--0----0-0-0-|


E E E E E E
|-16-------16S===18-----18-18---18\----|
|-19b21====19rS==22b25==22-22---22r\---|
|--------------------------------------|
|--------------------------------------|
|--------------------------------------|
|--------------------------------------|
| +W a
|-(18)------------------------------x--|
|-(22)------------------------------x--|
|--------------------------------------|
|--------------------------------------|
|--------------------------------------|
|--------------------------------------|
|
| PM--------------------------------|
| S S S S E E S S S S
|--------------------------------------|
|--------------------------------------|
|--------------------------------------|
|--------------------------------------|
|--------------------------------------|
|--0-----0--0--0--0------0--0-0--0---0-|


Gtr I
PM------------| PM------------|
S S S S S S S S Q 6x S S S S S S S S Q +H.
||--------------------------||------------------------:---------||
||o-----------------18-----o||-----------------18-----:-(18)----||
||------------------20b22---||-----------------20b22--:-(20)----||
||--------------------------||------------------------:---------||
||o------------------------o||------------------------:---------||
||--0-0-0-0-0-0-0-0---------||-0-0-0-0-0-0-0-0--------:---------||
|
| Gtr II
| PM------------| PM------------|
| S S S S S S S S Q 6x S S S S S S S S Q +H.
||------------------16------||-----------------18-----:-(18)----||
||o-----------------19b21--o||-----------------22b25--:-(22)----||
||--------------------------||------------------------:---------||
||--------------------------||------------------------:---------||
||o------------------------o||------------------------:---------||
||--0-0-0-0-0-0-0-0---------||-0-0-0-0-0-0-0-0--------:---------||


Verse
4/4
Gtrs I, II
PM| PM|
Q E S S E E E E Q. S S q Q 4x
||-------------------|-----------------||
||o------------------|----------------o||
||-------------------|-----------------||
||--0----------------|-----------------||
||o-0--------1p0---0-|----------1--1--o||
||--0----0-0-1p0---0-|------0-0-1--1---||


PM| PM----|
Q E S S E E E E E E E E q Q 3x
|-||-------------------|----------------||
|-||o------------------|---------------o||
|-||-------------------|----------------||
|-||--0----------------|----------------||
|-||o-0--------1p0---0-|---------1--1--o||
|-||--0----0-0-1p0---0-|-0-0-0-0-1--1---||


Pre Chorus
Gtrs I, II
PM| PM------| PM
Q E S S E E E E E E E E E E E E
|---------------------------|-------------------------|
|---------------------------|-------------------------|
|---------------------------|-------------------------|
|--0------------------------|-------------------------|
|--0-------------1p=0-----0-|--------------1-----1--1-|
|--0--------0-0--1p=0-----0-|--0--0--0--0--1--0--1--1-|
|
| Gtr III
| E E E E E E E E E E E E E E E E
|-13------------13----------|-------------------------|
|----15------------15-------|-------------------------|
|-------14------------14----|-------------------------|
|----------15------------15-|-15----14-------------15-|
|---------------------------|----17----16p13-16-17----|
|---------------------------|-------------------------|
|
| Gtr IV
| E E E E E E E E E E E E E E E E
|-17------------17----------|-------------------------|
|----18------------18-------|-------------------------|
|-------19------------19----|-------------------------|
|----------19------------19-|-19----18-------------19-|
|---------------------------|----20----19p17-19-20----|
|---------------------------|-------------------------|


Chorus
Gtrs I, II
Q Q H Q Q H Q Q H Q Q H
|----------------|---------------|------------|---------------|
|----------------|---------------|------------|---------------|
|----------------|---------------|------------|---------------|
|--0-----0--0----|--0---0--0-----|-2--2--2----|--2---2--2-----|
|--0-----0--0----|--0---0--0-----|-3--3--3----|--3---3--3-----|
|--0-----0--0----|--0---0--0-----|-2--2--2----|--2---2--2-----|
|
| Gtr V
| W +H. Q W +H. Q
|----------------|---------------|------------|---------------|
|----------------|---------------|------------|---------------|
|--7-------------|-(7)--------7S=|=9----------|-(9)--------9--|
|--x-------------|-(x)--------x--|-x----------|-(x)--------x--|
|--5-------------|-(5)--------5S=|=7----------|-(7)--------7--|
|----------------|---------------|------------|---------------|
|
| Gtr III
| W W W W
|----------------|---------------|------------|---------------|
|----------------|---------------|------------|---------------|
|-21b22----------|---------------|------------|---------------|
|----------------|---------------|------------|---------------|
|----------------|---------------|------------|---------------|
|----------------|---------------|------------|---------------|
|
| Gtr IV
| W W W W
|-20b22----------|---------------|------------|---------------|
|----------------|---------------|------------|---------------|
|----------------|---------------|------------|---------------|
|----------------|---------------|------------|---------------|
|----------------|---------------|------------|---------------|
|----------------|---------------|------------|---------------|

W

Gtrs I, II
Q Q H Q Q Q. +E Q Q H Q Q H
|------------|-------------------|------------|----------------|
|------------|-------------------|------------|----------------|
|-3--3--3----|--3---3--3-----(3)S|=2--2--2----|-2---2---2------|
|-3--3--3----|--3---3--3-----(3)-|-3--3--3----|-3---3---3------|
|-1--1--1----|--1---1--1-----(1)-|-0--0--0----|-0---0---0------|
|------------|-------------------|------------|----------------|
|
| Gtr V
| W +H. Q W Q Q Q Q
|------------|-------------------|------------|----------------|
|------------|-------------------|------------|----------------|
|-7----------|-(7)---------7S====|=6----------|-6---7---9--12--|
|-x----------|-(x)---------x-----|-x----------|-x---x---x---x--|
|-5----------|-(5)---------5S====|=4----------|-4---5---7--10--|
|------------|-------------------|------------|----------------|
|
| Gtr III
| W W W Q Q Q Q
|------------|-------------------|------------|----------------|
|------------|-------------------|------------|----------------|
|------------|-------------------|------------|-9--10--12--15--|
|------------|-------------------|------------|-x---x---x---x--|
|------------|-------------------|------------|-7---8--10--13--|
|------------|-------------------|------------|----------------|


1.,2.,3. 4.
Gtrs I, II
PM------------| PM----|
E E Q S S S S S S S S E E H. 4x E E Q S S S S E E W
||-------------------------|--------------||--------------------|------||
||o------------------------|-------------o||--------------------|------||
||-------------------------|--------------||--------------------|------||
||-------------------------|--------------||----------------1-3-|-1----||
||o-1p0--------------------|-3p0---------o||-3p0------------1-3-|-1----||
||--1p0----0-0-0-0-0-0-0-0-|-3p0----------||-3p0----0-0-0-0-1-3-|-1----||
|
| Gtr V /\
| E +Q +Q +E +Q / \ +W W W
||--------------------/=3=-\--------------||--------------------|------||
||o-<3>-(3)-(3)~(3)-(3)-----\(3)--------/o||--------------------|------||
||-----\----/-----\.5/----------\=4.5=-/--||--------------------|------||
||------\.7/-------\/------------\----/---||--------------------|------||
||o------\/-----------------------\--/---o||--------------------|------||
||---------------------------------\/-----||--------------------|------||
D#

PreVerse
3/4
Gtr I
PM------------| PM------------|
S S S S S S S S Q S S S S S S S S Q +H.
||--------------------------||------------------------:---------||
||o-----------------18-----o||-----------------18-----:-(18)----||
||------------------20b22---||-----------------20b22--:-(20)----||
||--------------------------||------------------------:---------||
||o------------------------o||------------------------:---------||
||--0-0-0-0-0-0-0-0---------||-0-0-0-0-0-0-0-0--------:---------||
|
| Gtr II
| PM------------| PM------------|
| S S S S S S S S Q S S S S S S S S Q +H.
||------------------16------||-----------------18-----:-(18)----||
||o-----------------19b21--o||-----------------22b25--:-(22)----||
||--------------------------||------------------------:---------||
||--------------------------||------------------------:---------||
||o------------------------o||------------------------:---------||
||--0-0-0-0-0-0-0-0---------||-0-0-0-0-0-0-0-0--------:---------||


Verse
4/4
Gtrs I, II
PM| PM|
Q E S S E E E E Q. S S q Q 4x
||-------------------|-----------------||
||o------------------|----------------o||
||-------------------|-----------------||
||--0----------------|-----------------||
||o-0--------1p0---0-|----------1--1--o||
||--0----0-0-1p0---0-|------0-0-1--1---||


PM| PM----|
Q E S S E E E E E E E E q Q 3x
||-------------------|----------------||
||o------------------|---------------o||
||-------------------|----------------||
||--0----------------|----------------||
||o-0--------1p0---0-|---------1--1--o||
||--0----0-0-1p0---0-|-0-0-0-0-1--1---||


Pre Chorus
Gtrs I, II
PM| PM------| PM
Q E S S E E E E E E E E E E E E
|---------------------------|-------------------------|
|---------------------------|-------------------------|
|---------------------------|-------------------------|
|--0------------------------|-------------------------|
|--0-------------1p=0-----0-|--------------1-----1--1-|
|--0--------0-0--1p=0-----0-|--0--0--0--0--1--0--1--1-|
|
| Gtr III
| E E E E E E E E E E E E E E E E
|-13------------13----------|-------------------------|
|----15------------15-------|-------------------------|
|-------14------------14----|-------------------------|
|----------15------------15-|-15----14-------------15-|
|---------------------------|----17----16p13-16-17----|
|---------------------------|-------------------------|
|
| Gtr IV
| E E E E E E E E E E E E E E E E
|-17------------17----------|-------------------------|
|----18------------18-------|-------------------------|
|-------19------------19----|-------------------------|
|----------19------------19-|-19----18-------------19-|
|---------------------------|----20----19p17-19-20----|
|---------------------------|-------------------------|


Chorus
Gtrs I, II
Q Q H Q Q H Q Q H Q Q H
|----------------|---------------|------------|---------------|
|----------------|---------------|------------|---------------|
|----------------|---------------|------------|---------------|
|--0-----0--0----|--0---0--0-----|-2--2--2----|--2---2--2-----|
|--0-----0--0----|--0---0--0-----|-3--3--3----|--3---3--3-----|
|--0-----0--0----|--0---0--0-----|-2--2--2----|--2---2--2-----|
|
| Gtr V
| W +H. Q W +H. Q
|----------------|---------------|------------|---------------|
|----------------|---------------|------------|---------------|
|--7-------------|-(7)--------7S=|=9----------|-(9)--------9--|
|--x-------------|-(x)--------x--|-x----------|-(x)--------x--|
|--5-------------|-(5)--------5S=|=7----------|-(7)--------7--|
|----------------|---------------|------------|---------------|
|
| Gtr III
| W W W W
|----------------|---------------|------------|---------------|
|----------------|---------------|------------|---------------|
|-21b22----------|---------------|------------|---------------|
|----------------|---------------|------------|---------------|
|----------------|---------------|------------|---------------|
|----------------|---------------|------------|---------------|
|
| Gtr IV
| W W W W
|-20b22----------|---------------|------------|---------------|
|----------------|---------------|------------|---------------|
|----------------|---------------|------------|---------------|
|----------------|---------------|------------|---------------|
|----------------|---------------|------------|---------------|
|----------------|---------------|------------|---------------|

W

Gtrs I, II
Q Q H Q Q Q. +E Q Q H Q Q H
|------------|-------------------|------------|----------------|
|------------|-------------------|------------|----------------|
|-3--3--3----|--3---3--3-----(3)S|=2--2--2----|-2---2---2------|
|-3--3--3----|--3---3--3-----(3)-|-3--3--3----|-3---3---3------|
|-1--1--1----|--1---1--1-----(1)-|-0--0--0----|-0---0---0------|
|------------|-------------------|------------|----------------|
|
| Gtr V
| W +H. Q W Q Q Q Q
|------------|-------------------|------------|----------------|
|------------|-------------------|------------|----------------|
|-7----------|-(7)---------7S====|=6----------|-6---7---9--12--|
|-x----------|-(x)---------x-----|-x----------|-x---x---x---x--|
|-5----------|-(5)---------5S====|=4----------|-4---5---7--10--|
|------------|-------------------|------------|----------------|
|
| Gtrs III
| W W W Q Q Q Q
|------------|-------------------|------------|----------------|
|------------|-------------------|------------|----------------|
|------------|-------------------|------------|-9--10--12--15--|
|------------|-------------------|------------|-x---x---x---x--|
|------------|-------------------|------------|-7---8--10--13--|
|------------|-------------------|------------|----------------|


1.,2.,3. 4.
Gtrs I, II
PM------------| PM----|
E E Q S S S S S S S S E E H. 4x E E Q S S S S E E W
||-------------------------|--------------||--------------------|------||
||o------------------------|-------------o||--------------------|------||
||-------------------------|--------------||--------------------|------||
||-------------------------|--------------||----------------1-3-|-1----||
||o-1p0--------------------|-3p0---------o||-3p0------------1-3-|-1----||
||--1p0----0-0-0-0-0-0-0-0-|-3p0----------||-3p0----0-0-0-0-1-3-|-1----||
|
| Gtr V /\
| E +Q +Q +E +Q / \ +W W W
||--------------------/=3=-\--------------||-[3]----/~~~\-------|------||
||o-<3>-(3)-(3)~(3)-(3)----|\(3)--------/o||-[3]---/-p.4-\------|------||
||-----\----/-----\.5/-----|----\=4.5=-/--||------/-------\-----|------||
||------\.7/-------\/------|-----\----/---||-----/---------\----|------||
||o------\/----------------|------\--/---o||----/-----------\---|------||
||-------------------------|-------\/-----||---/n.4-----n.3--\~~|------||
D# F,D#

Interlude
3/4
Gtrs I, II
Q. Q E H. Q. Q E H.
|-----------|---------|-----------|-------|
|-----------|---------|-----------|-------|
|-----------|---------|-5----5--5-|-5-----|
|-5----5--5-|-5-------|-5----5--5-|-5-----|
|-5----5--5-|-5-------|-3----3--3-|-3-----|
|-5----5--5-|-5-------|-----------|-------|


Q. Q E H. a Q. Q E H. a
|-----------|------------|-----------|--------------|
|-----------|------------|-----------|--------------|
|-----------|------------|-----------|--------------|
|-3----3--3-|-3------(3)S|=8----8--8-|-8-------(8)S=|
|-3----3--3-|-3------(3)S|=8----8--8-|-8-------(8)S=|
|-3----3--3-|-3------(3)S|=8----8--8-|-8-------(8)S=|


Q. Q E H. a Q. Q E H. a
|-----------|------------|-----------|--------------|
|-----------|------------|-----------|--------------|
|-----------|------------|-----------|-5-------(5)S=|
|-6----6--6-|-6------(6)S|=5----5--5-|-5-------(5)S=|
|-6----6--6-|-6------(6)S|=5----5--5-|-3-------(3)S=|
|-6----6--6-|-6------(6)S|=5----5--5-|--------------|


Q. Q E H. Q. Q E H.
|-----------|---------|-----------|-------||
|-----------|---------|-----------|-------||
|-7----7--7-|---------|-----------|-------||
|-7----7--7-|-0-------|-5----5--5-|-5-----||
|-5----5--5-|-0-------|-5----5--5-|-5-----||
|-----------|-0-------|-5----5--5-|-5-----||


Guitar Solo
Gtr V
~~~ ~~
a Q Q Q H. E E E E Q E E E E E +E
|-------------------|----------|-------------------|-15--------------------|
|-13s15---13---12---|----------|-13-----13-15-16---|-----16-------16-(16)\-|
|-------------------|-12-------|-----12------------|--------17-------------|
|-------------------|----------|-------------------|-----------17----------|
|-------------------|----------|-------------------|-----------------------|
|-------------------|----------|-------------------|-----------------------|
|
| Gtrs I, II
| Q. Q E H. Q. Q E H.
|-------------------|----------|-------------------|-----------------------|
|-------------------|----------|-------------------|-----------------------|
|-------------------|----------|--5---------5----5-|--5--------------------|
|-----5------5----5-|--5-------|--5---------5----5-|--5--------------------|
|-----5------5----5-|--5-------|--3---------3----3-|--3--------------------|
|-----5------5----5-|--5-------|-------------------|-----------------------|


~~~
Q Q Q H. E E E E E E E E E E E E
|-----------------|----------|------------------------|--------------------|
|-----------------|----------|------------------18p16-|-15-----------------|
|-/17---15---14---|----------|-----15-----15h17-------|-----15----15h17----|
|-----------------|-15-------|---------15-------------|--------15-------15-|
|-----------------|----------|------------------------|--------------------|
|-----------------|----------|------------------------|--------------------|
|
| Q. Q E H. a Q. Q E H.
|-----------------|----------|------------------------|--------------------|
|-----------------|----------|------------------------|--------------------|
|-----------------|----------|------------------------|--------------------|
|---3------3----3-|--3-------|-(3)S=8---------8-----8-|--8-----------------|
|---3------3----3-|--3-------|-(3)S=8---------8-----8-|--8-----------------|
|---3------3----3-|--3-------|-(3)S=8---------8-----8-|--8-----------------|


~~~
Q +H Q. a E Q a Q. Q. H.
|---------------------|----------------|--x---------------|----------|
|---------------------|---------15h16--|-----15-----------|-15b16----|
|-17b19r=(17)b20r=====|=17----x--------|-----------17-----|----------|
|---------------------|----------------|------------------|----------|
|---------------------|----------------|------------------|----------|
|---------------------|----------------|------------------|----------|
|
| Q. Q E H. a Q. Q E H.
|---------------------|----------------|------------------|----------|
|---------------------|----------------|------------------|----------|
|---------------------|----------------|------------------|--5-------|
|--6-------------6--6-|--6-------------|-(6)S=5-----5---5-|--5-------|
|--6-------------6--6-|--6-------------|-(6)S=5-----5---5-|--3-------|
|--6-------------6--6-|--6-------------|-(6)S=5-----5---5-|----------|


~~~
6:3|
Q. E Q a Q Q Q a a H +E E E H.
|--------------------|--------------|-----17b18-----(17)pb18r17p15h|=17-----||
|-14----15h17---(17)S|=18---17--18--|---x--------------------------|--------||
|--------------------|--------------|-x----------------------------|--------||
|--------------------|--------------|------------------------------|--------||
|--------------------|--------------|------------------------------|--------||
|--------------------|--------------|------------------------------|--------||
|
| Q. Q E H. Q. Q E H.
|--------------------|--------------|------------------------------|--------||
|--------------------|--------------|------------------------------|--------||
|--------------------|--------------|------------------------------|--------||
|-/7-----7----7------|--7-----------|------7------7-----------7----|--7-----||
|-/7-----7----7------|--7-----------|------8------8-----------8----|--8-----||
|-/7-----7----7------|--7-----------|------7------7-----------7----|--7-----||


Pre-Duet
4/4
Gtr III
\3.5/
W W
|------------------------|--------------------|
|-x----------------------|--(<3>)-------------|
|-x----------------------|--------------------|
|------------------------|--------------------|
|------------------------|--------------------|
|------------------------|--------------------|
| C#
| Gtr IV
| \3.5/
| W W
|------------------------|--------------------|
|-x----------------------|-(<10>)-------------|
|-x----------------------|--------------------|
|------------------------|--------------------|
|------------------------|--------------------|
|------------------------|--------------------|
| < C#
| Gtr VII /1
| W +W
|-(<5>)------------------|-(5)--------|
|-(<5>)------------------|-(5)--------|
|------------------------|------------|
|------------------------|------------|
|------------------------|------------|
|------------------------|------------|
| F,G#
|
| Gtrs I, II
| PM------------|
| E E Q S S S S S S S S E E H.
|------------------------|--------------------|
|------------------------|--------------------|
|------------------------|--------------------|
|------------------------|--------------------|
|-1p0--------------------|----1p====0---------|
|-1p0----0-0-0-0-0-0-0-0-|----1p====0---------|


\1
+W +H H
|--------------------------|----------------||
|--(3)---------------------|--(3)------x----||
|--------------------------|----------------||
|--------------------------|----------------||
|--------------------------|----------------||
|--------------------------|----------------||
|
| \1
| +W +H H
|--------------------------|----------------||
|-(10)---------------------|-(10)------x----||
|--------------------------|----------------||
|--------------------------|----------------||
|--------------------------|----------------||
|--------------------------|----------------||
|
| \0.5
| +W W
|-(5)----------------------|-x--------------||
|-(5)----------------------|-x--------------||
|--------------------------|----------------||
|--------------------------|----------------||
|--------------------------|----------------||
|--------------------------|----------------||
|
|
| PM------------|
| E E Q S S S S S S S S E E H.
|--------------------------|----------------||
|--------------------------|----------------||
|--------------------------|----------------||
|--------------------------|----------------||
|---1p0--------------------|---1p0----------||
|---1p0----0-0-0-0-0-0-0-0-|---1p0----------||


Duet FOR PULL-OFF RUNS (background "sweeps"), PLEASE SEE BOTTOM OF TAB
Q Q Q Q Q Q Q Q
|----------------------------|-------------------|
|----------------------------|-------------------|
|-x---/11--12-------14-------|-12---11---12--14--|
|-x--------------------------|-------------------|
|-x--------------------------|-------------------|
|----------------------------|-------------------|
|
| Q Q Q Q Q Q Q Q
|----------------------------|-------------------|
|----------------------------|-------------------|
|-x----/7---8-------10-------|--8----7----8--10--|
|-x--------------------------|-------------------|
|-x--------------------------|-------------------|
|----------------------------|-------------------|
|
| PM-------------|
| E E Q S S S S S S S S E E H.
|----------------------------|-------------------|
|----------------------------|-------------------|
|----------------------------|-------------------|
|----------------------------|-------------------|
|-1p0------------------------|--1p0--------------|
|-1p0-------0-0-0-0--0-0-0-0-|--1p0--------------|


~~~ ~~~~~~~~~~~~~~~~~~~~~~~
Q. S S H +W
|-------------------------------|----------------------|
|-------------------------------|----------------------|
|-12-----14p12p11---------------|-(11)-----------------|
|-------------------------------|----------------------|
|-------------------------------|----------------------|
|-------------------------------|----------------------|
|
| ~~~ ~~~~~~~~~~~~~~~~~~~~~~~
| Q. S S H +W
|-------------------------------|----------------------|
|-------------------------------|----------------------|
|--8-----10p=8p=7---------------|--(7)-----------------|
|-------------------------------|----------------------|
|-------------------------------|----------------------|
|-------------------------------|----------------------|
|
| PM------------| PM|
| E E Q S S S S S S S S E E Q. S S E E
|-------------------------------|----------------------|
|-------------------------------|----------------------|
|-------------------------------|----------------------|
|-------------------------------|----------------------|
|--1p0--------------------------|---1p0----------1-3---|
|--1p0----------0-0-0-0-0-0-0-0-|---1p0------0-0-1-3---|


Q Q Q Q Q Q Q Q
|---------------------------|-------------------|
|-----12--13-------16-------|-13---12---13--16--|
|---------------------------|-------------------|
|---------------------------|-------------------|
|---------------------------|-------------------|
|---------------------------|-------------------|
|
| Q Q Q Q Q Q Q Q
|---------------------------|-------------------|
|------8---9-------12-------|--9----8----9--12--|
|---------------------------|-------------------|
|---------------------------|-------------------|
|---------------------------|-------------------|
|---------------------------|-------------------|
|
| PM-------------|
| E E Q S S S S S S S S E E H.
|---------------------------|-------------------|
|---------------------------|-------------------|
|---------------------------|-------------------|
|---------------------------|-------------------|
|-7p5-----------------------|--7p5--------------|
|-7p5------5-5-5-5--5-5-5-5-|--7p5--------------|


~~~ ~~~~~~~~~~~~~~~~~~~~~~~
Q. S S H +W
|-------------------------------|----------------------|
|-13-----16p13p12---------------|-(12)-----------------|
|-------------------------------|----------------------|
|-------------------------------|----------------------|
|-------------------------------|----------------------|
|-------------------------------|----------------------|
|
| ~~~ ~~~~~~~~~~~~~~~~~~~~~~~
| Q. S S H +W
|-------------------------------|----------------------|
|--9-----12p=9p=8---------------|--(8)-----------------|
|-------------------------------|----------------------|
|-------------------------------|----------------------|
|-------------------------------|----------------------|
|-------------------------------|----------------------|
|
| PM------------| PM|
| E E Q S S S S S S S S E E Q. S S E E
|-------------------------------|----------------------|
|-------------------------------|----------------------|
|-------------------------------|----------------------|
|-------------------------------|----------------------|
|--7p5--------------------------|---7p5----------7-8---|
|--7p5----------5-5-5-5-5-5-5-5-|---7p5------5-5-7-8---|


Q Q Q Q Q Q Q Q
|-------12--13----------15----------|-13----12---13--15--|
|-----------------------------------|--------------------|
|-----------------------------------|--------------------|
|-----------------------------------|--------------------|
|-----------------------------------|--------------------|
|-----------------------------------|--------------------|
|
| Q Q Q Q Q Q Q Q
|--------8---9----------11----------|--9-----8----9--11--|
|-----------------------------------|--------------------|
|-----------------------------------|--------------------|
|-----------------------------------|--------------------|
|-----------------------------------|--------------------|
|-----------------------------------|--------------------|
|
| PM------------------|
| E E Q S S S S S S S S E E H.
|-----------------------------------|--------------------|
|-----------------------------------|--------------------|
|-----------------------------------|--------------------|
|-----------------------------------|--------------------|
|-11p10-----------------------------|-11p10--------------|
|-11p10-----10-10-10-10-10-10-10-10-|-11p10--------------|


~~~~
S S S S S S S S S S S S S S S S S S S S S S S S H
|-12h13-15p13-12h13-15p13-12h13-15p13-12h13-15p13-|-12h13-15p13-12h13-15p13-[13]----------------|
|-------------------------------------------------|---------------------------------------------|
|-------------------------------------------------|---------------------------------------------|
|-------------------------------------------------|---------------------------------------------|
|-------------------------------------------------|---------------------------------------------|
|-------------------------------------------------|---------------------------------------------|
|
| ~~~~
| S S S S S S S S S S S S S S S S S S S S S S S S H
|--8h=9-11p=9--8h=9-11p=9--8h=9-11p=9--8h=9-11p=9-|--8h=9-11p=9--8h=9-11p=9-[10]----------------|
|-------------------------------------------------|---------------------------------------------|
|-------------------------------------------------|---------------------------------------------|
|-------------------------------------------------|---------------------------------------------|
|-------------------------------------------------|---------------------------------------------|
|-------------------------------------------------|---------------------------------------------|
|
| PM------------------| PM|
| E E Q S S S S S S S S E E Q. S S EE
|-------------------------------------------------|---------------------------------------------|
|-------------------------------------------------|---------------------------------------------|
|-------------------------------------------------|---------------------------------------------|
|-------------------------------------------------|---------------------------------------------|
|-11p===10----------------------------------------|-11p===10---------------------------11p10\---|
|-11p===10----------------10-10-10-10-10-10-10-10-|-11p===10---------------------10-10-11p10\---|


Q Q Q Q Q Q Q Q
|----------------------------|-------------------|
|-----/14--15-------17-------|-15---14---15--17--|
|----------------------------|-------------------|
|----------------------------|-------------------|
|----------------------------|-------------------|
|----------------------------|-------------------|
|
| Q Q Q Q Q Q Q Q
|----------------------------|-------------------|
|-------------------14-------|---------------14--|
|-----/14--15----------------|-15---14---15------|
|----------------------------|-------------------|
|----------------------------|-------------------|
|----------------------------|-------------------|
|
| PM-------------|
| E E Q S S S S S S S S E E H.
|----------------------------|-------------------|
|----------------------------|-------------------|
|----------------------------|-------------------|
|----------------------------|-------------------|
|-7p5------------------------|--7p5--------------|
|-7p5-------5-5-5-5--5-5-5-5-|--7p5--------------|


~~~~
|--------------3--------------| |-------3--------|
Q Q Q Q Q Q Q Q S S H +Q
|--------------------------------------|--18p==17-------17-20b22-----(20)----||
|-14---15---17-/20-----18-------17-----|-------------18----------------------||
|--------------------------------------|-------------------------------------||
|--------------------------------------|-------------------------------------||
|--------------------------------------|-------------------------------------||
|--------------------------------------|-------------------------------------||
|
| ~~~~
| |--------------3--------------| |-------3--------|
| Q Q Q Q Q Q Q Q S S H +Q
|--------------------------------------|-------------------15b17-----(15)----||
|-----------14-/17-----15-------14-----|-/18s==17-------17-------------------||
|-14---15------------------------------|-------------17----------------------||
|--------------------------------------|-------------------------------------||
|--------------------------------------|-------------------------------------||
|--------------------------------------|-------------------------------------||
|
| PM------------------| PM|
| E E Q S S S S S S S S E E Q. S S E E
|--------------------------------------|-------------------------------------||
|--------------------------------------|-------------------------------------||
|--------------------------------------|-------------------------------------||
|--------------------------------------|-------------------------------------||
|--7p5---------------------------------|---7p5-------------------------5--0--||
|--7p5-----------5-5-5----5-5-5----5-5-|---7p5-------------------5-5---5--0--||


Verse
Gtrs I, II
PM----------------------------------| PM|
S S S S S S S S S S S S S S S S Q E S S E E E E
|----------------------------------------||-------------------|
|----------------------------------------||o------------------|
|----------------------------------------||-------------------|
|----------------------------------------||--0----------------|
|----------------------------------------||o-0--------1p0---0-|
|--0----0-0-0-0-0-0-0-0-0-0-0-0-0---0--0-||--0----0-0-1p0---0-|
|
| Gtr III
| H.. +E w
|-20b22r==========================(20)p==||==x----------------|
|----------------------------------------||o------------------|
|----------------------------------------||-------------------|
|----------------------------------------||-------------------|
|----------------------------------------||o------------------|
|----------------------------------------||-------------------|
|
| Gtr IV
| H.. +E w
|-15b17r==========================(15)p==||==x----------------|
|----------------------------------------||o------------------|
|----------------------------------------||-------------------|
|----------------------------------------||-------------------|
|----------------------------------------||o------------------|
|----------------------------------------||-------------------|


PM| PM| PM|
Q. S S q Q Q E S S E E E E Q. S S q Q
|-----------------||---------------------------|-------------------------------||
|----------------o||---------------------------|-------------------------------||
|-----------------||---------------------------|-------------------------------||
|-----------------||--0------------------------|-------------------------------||
|----------1--1--o||--0-------------1p=0-----0-|-----------------1-----1-------||
|------0-0-1--1---||--0--------0-0--1p=0-----0-|------------0-0--1-----1-------||
|
| W E E E E E E E E E E E E E E E E
|-----------------||-13------------13----------|-------------------------------||
|----------------o||----15------------15-------|-------------------------------||
|-----------------||-------14------------14----|-------------------------------||
|-----------------||----------15------------15-|-15-----14---------------15----||
|----------------o||---------------------------|-----17----16p==13-16-17-------||
|-----------------||---------------------------|-------------------------------||
|
| W E E E E E E E E E E E E E E E E
|-----------------||-17------------17----------|-------------------------------||
|----------------o||----18------------18-------|-------------------------------||
|-----------------||-------19------------19----|-------------------------------||
|-----------------||----------19------------19-|-19-----18---------------19----||
|----------------o||---------------------------|-----20----19p==17-19-20-------||
|-----------------||---------------------------|-------------------------------||


Chorus
Gtrs I, II
Q Q H Q Q H Q Q H Q Q H
|----------------|---------------|------------|---------------|
|----------------|---------------|------------|---------------|
|----------------|---------------|------------|---------------|
|--0-----0--0----|--0---0--0-----|-2--2--2----|--2---2--2-----|
|--0-----0--0----|--0---0--0-----|-3--3--3----|--3---3--3-----|
|--0-----0--0----|--0---0--0-----|-2--2--2----|--2---2--2-----|
|
| Gtr V
| W +H. Q W +H. Q
|----------------|---------------|------------|---------------|
|----------------|---------------|------------|---------------|
|--7-------------|-(7)--------7S=|=9----------|-(9)--------9--|
|--x-------------|-(x)--------x--|-x----------|-(x)--------x--|
|--5-------------|-(5)--------5S=|=7----------|-(7)--------7--|
|----------------|---------------|------------|---------------|
|
| W W W W
|-20b22----------|---------------|------------|---------------|
|----------------|---------------|------------|---------------|
|-21b22----------|---------------|------------|---------------|
|----------------|---------------|------------|---------------|
|----------------|---------------|------------|---------------|
|----------------|---------------|------------|---------------|
W


Q Q H Q Q Q. +E Q Q H Q Q H
|------------|-------------------|------------|----------------|
|------------|-------------------|------------|----------------|
|-3--3--3----|--3---3--3-----(3)S|=2--2--2----|-2---2---2------|
|-3--3--3----|--3---3--3-----(3)-|-3--3--3----|-3---3---3------|
|-1--1--1----|--1---1--1-----(1)-|-0--0--0----|-0---0---0------|
|------------|-------------------|------------|----------------|
|
| Gtr III
| W +H. Q W Q Q Q Q
|------------|-------------------|------------|----------------|
|------------|-------------------|------------|----------------|
|-7----------|-(7)---------7S====|=6----------|-6---7---9--12--|
|-x----------|-(x)---------x-----|-x----------|-x---x---x---x--|
|-5----------|-(5)---------5S====|=4----------|-4---5---7--10--|
|------------|-------------------|------------|----------------|
|
| W W W Q Q Q Q
|------------|-------------------|------------|----------------|
|------------|-------------------|------------|----------------|
|------------|-------------------|------------|-9--10--12--15--|
|------------|-------------------|------------|-x---x---x---x--|
|------------|-------------------|------------|-7---8--10--13--|
|------------|-------------------|------------|----------------|


Q Q H Q Q H Q Q H Q Q H
|----------------|--------------|------------|------------------------|
|----------------|--------------|------------|------------------------|
|----------------|--------------|------------|------------------------|
|-0---0-----0----|-0--0---0-----|-2--2--2----|--2-----2-----2---------|
|-0---0-----0----|-0--0---0-----|-3--3--3----|--3-----3-----3---------|
|-0---0-----0----|-0--0---0-----|-2--2--2----|--2-----2-----2---------|
|
| Gtr V
| Q. +E H Q Q Q Q H H H. Q
|----------------|--------------|------------|------------------------|
|----------------|--------------|------------|------------------------|
|-9-----(9)S7----|-7--9--10--7--|-9-----5----|--9----------------9S===|
|-x-----(x)-x----|-x--x---x--x--|-x-----x----|--x----------------xS===|
|-7-----(7)S5----|-5--7---8--5--|-7-----3----|--7----------------7S===|
|----------------|--------------|------------|------------------------|
|
| Gtrs III, IV
| |---------3---------|
| W W W Q Q Q Q Q Q
|----------------|--------------|------------|------------------------|
|----------------|--------------|------------|------------------------|
|----------------|--------------|------------|-12--12---12-12-10----9-|
|----------------|--------------|------------|-14--14---14-14-12---10-|
|----------------|--------------|------------|------------------------|
|----------------|--------------|------------|------------------------|
Q Q Q Q Q Q
|---------3---------|


Q Q H Q Q Q. +E Q Q H Q Q H
|--------------|----------------------|--------------------|-----------------||
|--------------|----------------------|--------------------|-----------------||
|--3--3---3----|--3----3---3------(3)S|==2----2--2---------|--2---2---2------||
|--3--3---3----|--3----3---3------(3)-|--3----3--3---------|--3---3---3------||
|--1--1---1----|--1----1---1------(1)-|--0----0--0---------|--0---0---0------||
|--------------|----------------------|--------------------|-----------------||
|
| W +H. Q W Q Q Q Q
|--------------|----------------------|--------------------|-----------------||
|--------------|----------------------|--------------------|-----------------||
|--7-----------|-(7)------------7S====|==6-----------------|--9--10--12--15--||
|--x-----------|-(x)------------x-----|--x-----------------|--x---x---x---x--||
|--5-----------|-(5)------------5S====|==4-----------------|--7---8--10--13--||
|--------------|----------------------|--------------------|-----------------||
| Q Q Q Q
|
| H H Q Q Q Q W Q Q Q Q
|--------------|----------------------|--------------------|-----------------||
|--------------|----------------------|--------------------|-----------------||
|-10-----------|----------------------|--------------------|-----------------||
|-12-----12----|-12---14--15---12-----|-14-----------(14)\-|-14--15--17--20--||
|--------13----|-13---15--17---13-----|-16-----------------|-16--17--19--20--||
|--------------|----------------------|--------------------|-----------------||
H H Q Q Q Q H.. +E Q Q Q Q


Outro
3/4
Gtr IV
H. +H. +H. +H. +Q H
|-16---------:-(16)------:-(16)------:-(16)------:-(16)-------*|
|-19b21------:-(19)------:-(19)------:-(19)------:-(19)-------*|
|------------:-----------:-----------:-----------:------------*|
|------------:-----------:-----------:-----------:------------*|
|------------:-----------:-----------:-----------:------------*|
|------------:-----------:-----------:-----------:------------*|
|
| Gtr III
| H. +H. +H. +H. +Q H
|-13---------:-(13)------:-(13)------:-(13)------:-(13)-------*|
|-16b18------:-(16)------:-(16)------:-(16)------:-(16)-------*|
|------------:-----------:-----------:-----------:------------*|
|------------:-----------:-----------:-----------:------------*|
|------------:-----------:-----------:-----------:------------*|
|------------:-----------:-----------:-----------:------------*|
|
| Gtrs I, II
| TP TP TP TP
| H. +H. +H. +H. Q H
|------------:-----------:-----------:-----------:------------*|
|------------:-----------:-----------:-----------:------------*|
|------------:-----------:-----------:-----------:------------*|
|------------:-----------:-----------:-----------:------------*|
|------------:-----------:-----------:-----------:---0--------*|
|--0---------:--(0)------:--(0)------:--(0)------:---0--------*|

*****************************************************************
Backing Guitar In The Duet Is:

Gtr VII
Duet
H S S Q. H S S S S S S S S
|---------------------|------14p11-14p12p11----11----|
|---------------------|---------------------14----14p|
|------(14)s(11)------|------------------------------|
|---------------------|------------------------------|
|---------------------|------------------------------|
|---------------------|------------------------------|


S S S S S S S S S S S S S S S S S S S S E +E H
|-------------------------------------------------|---------------------------|
|-11----------------------------------------------|---------------------------|
|----14p12p11-------------------------------------|---------------------------|
|-------------14p12p11-14p12p11-------------------|---------------------------|
|-------------------------------14p12p11-14p12p11-|---------------------------|
|-------------------------------------------------|-14p12p11-11h12-(12)\------|


H S S Q. H S S S S S S S S
|-----------------|------16p13p12-16p13p12-------|
|------16s13------|------------------------16p13p|
|-----------------|------------------------------|
|-----------------|------------------------------|
|-----------------|------------------------------|
|-----------------|------------------------------|


S S S S S S S S S S S S S S S S S S S S E +E H
|-------------------------------------------------|---------------------------|
|-12----------------------------------------------|---------------------------|
|----16p13p12-------------------------------------|---------------------------|
|-------------16p13p12-16p13h16-------------------|---------------------------|
|-------------------------------16p13p12-16p13p12-|---------------------------|
|-------------------------------------------------|-16p13p12-13h16-(16)\------|
 
 
 
--------------------------------------------------------------------------------


Duration Legend
---------------
W - whole; H - half; Q - quarter; E - 8th; S - 16th; T - 32nd; X - 64th; a - acciaccatura
+ - note tied to previous; . - note dotted; .. - note double dotted
Uncapitalized letters represent notes that are staccato (1/2 duration)
Irregular groupings are notated above the duration line
Duration letters will always appear directly above the note/fret number it represents the
duration for. Duration letters with no fret number below them represent rests. Multi-
bar rests are notated in the form Wxn, where n is the number of bars to rest for. Low
melody durations appear below the staff

Tablature Legend
----------------
h - hammer-on
p - pull-off
b - bend
pb - pre-bend
r - bend release (if no number after the r, then release immediately)
/\ - slide into or out of (from/to "nowhere")
s - legato slide
S - shift slide
- natural harmonic
[n] - artificial harmonic
n(n) - tapped harmonic
~ - vibrato
tr - trill
T - tap
TP - trem. picking
PM - palm muting
\n/ - tremolo bar dip; n = amount to dip
\n - tremolo bar down
n/ - tremolo bar up
/n\ - tremolo bar inverted dip
= - hold bend; also acts as connecting device for hammers/pulls
> - volume swell (louder/softer)
x - on rhythm slash represents muted slash
o - on rhythm slash represents single note slash

Misc Legend
-----------
| - bar
|| - double bar
||o - repeat start
o|| - repeat end
*| - double bar (ending)
: - bar (freetime)
$ - Segno
& - Coda
Tempo markers - = BPM(8/16=s8/s16), where s8 = swing 8ths, s16 = swing 16ths


---------------------------------------------------------------------------------------------
Thanks for reading this tab. Good luck playing and learning.
Special Thanks to:
Rockford_rocks for Unbound (The Wild Ride)
Adammn6661 for A Little Piece Of Heaven
Dyuha and Foxxx for all the hard work they do.
Gabriel Ortiz for inspiring me to tab.
Buckethead_jr for the competition with tabbing.
zappp for making it all possible
And last but not least, Everyone who's ever commented or rated my tabs suggesting on
to improve.

- Seth "Shadows" Sanders. February 21st, 2008
Too Weird to live but much to rare to die.
 
 
 
      


Demikianlah Artikel Tablatur Guitar Avenged Sevenfold - Critical Acclaim
Sekianlah artikel Tablatur Guitar Avenged Sevenfold - Critical Acclaim kali ini, mudah-mudahan bisa memberi manfaat untuk anda semua. baiklah, sampai jumpa di postingan artikel lainnya.

Anda sekarang membaca artikel Tablatur Guitar Avenged Sevenfold - Critical Acclaim dengan alamat link http://nengca.blogspot.com/2013/02/tablatur-guitar-avenged-sevenfold_85.html

0 Response to "Tablatur Guitar Avenged Sevenfold - Critical Acclaim"

Posting Komentar